Calcular variância e frequencia. Como?

Assuntos matemáticos relacionados ao ensino superior.

Moderadores: Paulo Testoni, Elcioschin

Calcular variância e frequencia. Como?

Mensagempor LiviaNobel » Terça Nov 08, 2011 7:59 pm

NAO CONSIGO RESOLVER ESSAS 2 QUESTOES,ALGUEM PODE ME AJUDAR POR FAVOR?


Pergunta 1-) A tabela abaixo fornece a distribuição de frequência dos tempos necessários para a
conclusão de auditorias.

Tempo necessário para a conclusão das auditorias (dias)

Tempo-------------------------Frequênc… (ƒi)
10-14---------------------------------… 4
15-19---------------------------------… 8
20-24---------------------------------… 5
25-29---------------------------------… 2
30-34---------------------------------… 1

Total---------------------------------… 20

Com base na tabela, calcule a variância da amostra, S2?


Pergunta 2-)A distribuição de frequências abaixo se refere à renda anual de certa população (em R$ mil).

TABELA Renda Anual

Classe------------- Frequência(ƒi)
0-10------------------------- 2
10-20----------------------- 1
20-30----------------------- 5
30-40----------------------- 8
40-50----------------------- 4

Total------------------------ 20

Calcule a soma dos quadrados das diferenças dos valores em relação à média,
multiplicada pela respectiva frequência.


POR FAVOR ME AJUDEM!!GRATA
LiviaNobel
 
Mensagens: 3
Registrado: Terça Ago 23, 2011 10:57 am

Voltar para Ensino Superior

Quem está ligado

Usuários navegando neste fórum: Nenhum usuário registrado e 2 visitantes